ISO-10303-21;
HEADER;
FILE_DESCRIPTION (( 'STEP AP214' ),
    '1' );
FILE_NAME ('FULLVAC JF1CF200.STEP',
    '2019-03-29T13:52:08',
    ( '' ),
    ( '' ),
    'SwSTEP 2.0',
    'SolidWorks 2017',
    '' );
FILE_SCHEMA (( 'AUTOMOTIVE_DESIGN' ));
ENDSEC;

DATA;
#1 = AXIS2_PLACEMENT_3D ( 'NONE', #204, #34, #235 ) ;
#2 = PLANE ( 'NONE',  #1 ) ;
#3 = CARTESIAN_POINT ( 'NONE',  ( -1.250000001598140300, 0.0000000000000000000, 110.6415137215224400 ) ) ;
#4 = DIRECTION ( 'NONE',  ( 0.0000000000000000000, 0.0000000000000000000, -1.000000000000000000 ) ) ;
#5 = VERTEX_POINT ( 'NONE', #193 ) ;
#6 = PRODUCT ( 'FULLVAC JF1CF200', 'FULLVAC JF1CF200', '', ( #227 ) ) ;
#7 = ORIENTED_EDGE ( 'NONE', *, *, #220, .F. ) ;
#8 = ADVANCED_FACE ( 'NONE', ( #136, #93 ), #29, .T. ) ;
#9 = DIRECTION ( 'NONE',  ( 1.000000000000000000, -0.0000000000000000000, -5.000932529929870600E-019 ) ) ;
#10 = AXIS2_PLACEMENT_3D ( 'NONE', #240, #128, #4 ) ;
#11 = ORIENTED_EDGE ( 'NONE', *, *, #52, .T. ) ;
#12 = CIRCLE ( 'NONE', #10, 107.7649147042204400 ) ;
#13 = DIRECTION ( 'NONE',  ( 1.000000000000000000, 0.0000000000000000000, 0.0000000000000000000 ) ) ;
#14 = DIRECTION ( 'NONE',  ( 0.0000000000000000000, 0.0000000000000000000, 1.000000000000000000 ) ) ;
#15 = FACE_BOUND ( 'NONE', #38, .T. ) ;
#16 = DIRECTION ( 'NONE',  ( 0.0000000000000000000, 0.0000000000000000000, -1.000000000000000000 ) ) ;
#17 = SURFACE_STYLE_USAGE ( .BOTH. , #149 ) ;
#18 = STYLED_ITEM ( 'NONE', ( #50 ), #110 ) ;
#19 = EDGE_CURVE ( 'NONE', #115, #115, #91, .T. ) ;
#20 = FILL_AREA_STYLE_COLOUR ( '', #46 ) ;
#21 = EDGE_LOOP ( 'NONE', ( #221 ) ) ;
#22 = FACE_BOUND ( 'NONE', #43, .T. ) ;
#23 = CARTESIAN_POINT ( 'NONE',  ( 0.4999999998099998700, 108.3999999996709400, 0.0000000000000000000 ) ) ;
#24 = CYLINDRICAL_SURFACE ( 'NONE', #203, 103.0000000000000100 ) ;
#25 = CONICAL_SURFACE ( 'NONE', #199, 108.3999999996709200, 0.5235987750000149500 ) ;
#26 = ADVANCED_FACE ( 'NONE', ( #233, #133 ), #49, .T. ) ;
#27 = CIRCLE ( 'NONE', #42, 103.0000000000000100 ) ;
#28 = AXIS2_PLACEMENT_3D ( 'NONE', #209, #77, #60 ) ;
#29 = CONICAL_SURFACE ( 'NONE', #231, 108.3999999996709200, 0.5235987750000107300 ) ;
#30 = EDGE_CURVE ( 'NONE', #232, #232, #217, .T. ) ;
#31 = EDGE_CURVE ( 'NONE', #228, #228, #163, .T. ) ;
#32 = DIRECTION ( 'NONE',  ( 1.000000000000000000, -0.0000000000000000000, 0.0000000000000000000 ) ) ;
#33 = EDGE_LOOP ( 'NONE', ( #126 ) ) ;
#34 = DIRECTION ( 'NONE',  ( -1.000000000000000000, 0.0000000000000000000, 0.0000000000000000000 ) ) ;
#35 =( LENGTH_UNIT ( ) NAMED_UNIT ( * ) SI_UNIT ( .MILLI., .METRE. ) );
#36 = CARTESIAN_POINT ( 'NONE',  ( 1.600000000189977200, 0.0000000000000000000, 107.7649147042204400 ) ) ;
#37 = APPLICATION_PROTOCOL_DEFINITION ( 'draft international standard', 'automotive_design', 1998, #85 ) ;
#38 = EDGE_LOOP ( 'NONE', ( #184 ) ) ;
#39 =( NAMED_UNIT ( * ) PLANE_ANGLE_UNIT ( ) SI_UNIT ( $, .RADIAN. ) );
#40 = UNCERTAINTY_MEASURE_WITH_UNIT (LENGTH_MEASURE( 1.000000000000000100E-005 ), #86, 'distance_accuracy_value', 'NONE');
#41 = FACE_OUTER_BOUND ( 'NONE', #169, .T. ) ;
#42 = AXIS2_PLACEMENT_3D ( 'NONE', #236, #222, #237 ) ;
#43 = EDGE_LOOP ( 'NONE', ( #212 ) ) ;
#44 = MECHANICAL_DESIGN_GEOMETRIC_PRESENTATION_REPRESENTATION (  '', ( #18 ), #59 ) ;
#45 = AXIS2_PLACEMENT_3D ( 'NONE', #218, #9, #248 ) ;
#46 = COLOUR_RGB ( '',0.3215686274509803600, 0.3215686274509803600, 0.3215686274509803600 ) ;
#47 = CIRCLE ( 'NONE', #99, 108.3999999996709200 ) ;
#48 = AXIS2_PLACEMENT_3D ( 'NONE', #100, #13, #170 ) ;
#49 = CYLINDRICAL_SURFACE ( 'NONE', #213, 111.2500000000000000 ) ;
#50 = PRESENTATION_STYLE_ASSIGNMENT (( #17 ) ) ;
#51 = CONICAL_SURFACE ( 'NONE', #103, 110.6415137215224400, 1.247910413749999000 ) ;
#52 = EDGE_CURVE ( 'NONE', #196, #196, #214, .T. ) ;
#53 = DIRECTION ( 'NONE',  ( 0.0000000000000000000, 0.0000000000000000000, -1.000000000000000000 ) ) ;
#54 = PLANE ( 'NONE',  #28 ) ;
#55 = CARTESIAN_POINT ( 'NONE',  ( -1.250000001598140300, 0.0000000000000000000, 0.0000000000000000000 ) ) ;
#56 = ORIENTED_EDGE ( 'NONE', *, *, #244, .F. ) ;
#57 =( NAMED_UNIT ( * ) PLANE_ANGLE_UNIT ( ) SI_UNIT ( $, .RADIAN. ) );
#58 = DIRECTION ( 'NONE',  ( 1.000000000000000000, 0.0000000000000000000, -0.0000000000000000000 ) ) ;
#59 =( GEOMETRIC_REPRESENTATION_CONTEXT ( 3 ) GLOBAL_UNCERTAINTY_ASSIGNED_CONTEXT ( ( #40 ) ) GLOBAL_UNIT_ASSIGNED_CONTEXT ( ( #86, #39, #102 ) ) REPRESENTATION_CONTEXT ( 'NONE', 'WORKASPACE' ) );
#60 = DIRECTION ( 'NONE',  ( 0.0000000000000000000, 0.0000000000000000000, -1.000000000000000000 ) ) ;
#61 = ORIENTED_EDGE ( 'NONE', *, *, #220, .T. ) ;
#62 = SURFACE_STYLE_FILL_AREA ( #152 ) ;
#63 = UNCERTAINTY_MEASURE_WITH_UNIT (LENGTH_MEASURE( 1.000000000000000100E-005 ), #35, 'distance_accuracy_value', 'NONE');
#64 = APPLICATION_PROTOCOL_DEFINITION ( 'draft international standard', 'automotive_design', 1998, #106 ) ;
#65 = FACE_OUTER_BOUND ( 'NONE', #117, .T. ) ;
#66 = EDGE_LOOP ( 'NONE', ( #145 ) ) ;
#67 = FACE_OUTER_BOUND ( 'NONE', #139, .T. ) ;
#68 = AXIS2_PLACEMENT_3D ( 'NONE', #147, #253, #16 ) ;
#69 = AXIS2_PLACEMENT_3D ( 'NONE', #55, #171, #80 ) ;
#70 = EDGE_LOOP ( 'NONE', ( #247 ) ) ;
#71 = DIRECTION ( 'NONE',  ( 0.0000000000000000000, 0.0000000000000000000, -1.000000000000000000 ) ) ;
#72 = CARTESIAN_POINT ( 'NONE',  ( -1.600000000000000100, 105.3824573519457000, 0.0000000000000000000 ) ) ;
#73 = DIRECTION ( 'NONE',  ( -1.260234997542327100E-016, 1.000000000000000000, 0.0000000000000000000 ) ) ;
#74 = DIRECTION ( 'NONE',  ( -1.000000000000000000, -0.0000000000000000000, -0.0000000000000000000 ) ) ;
#75 = PRESENTATION_LAYER_ASSIGNMENT (  '', '', ( #96 ) ) ;
#76 = DIRECTION ( 'NONE',  ( 0.0000000000000000000, 0.0000000000000000000, -1.000000000000000000 ) ) ;
#77 = DIRECTION ( 'NONE',  ( 1.000000000000000000, -0.0000000000000000000, 0.0000000000000000000 ) ) ;
#78 = DIRECTION ( 'NONE',  ( -1.000000000000000000, 0.0000000000000000000, 5.000932529929870600E-019 ) ) ;
#79 = FACE_OUTER_BOUND ( 'NONE', #249, .T. ) ;
#80 = DIRECTION ( 'NONE',  ( 0.0000000000000000000, 0.0000000000000000000, 1.000000000000000000 ) ) ;
#81 = FACE_OUTER_BOUND ( 'NONE', #101, .T. ) ;
#82 = DIRECTION ( 'NONE',  ( 4.500839276936882900E-017, 1.000000000000000000, 0.0000000000000000000 ) ) ;
#83 = DIRECTION ( 'NONE',  ( 1.000000000000000000, 0.0000000000000000000, 0.0000000000000000000 ) ) ;
#84 = AXIS2_PLACEMENT_3D ( 'NONE', #72, #98, #14 ) ;
#85 = APPLICATION_CONTEXT ( 'automotive_design' ) ;
#86 =( LENGTH_UNIT ( ) NAMED_UNIT ( * ) SI_UNIT ( .MILLI., .METRE. ) );
#87 = AXIS2_PLACEMENT_3D ( 'NONE', #146, #123, #76 ) ;
#88 = ADVANCED_FACE ( 'NONE', ( #150, #79 ), #116, .T. ) ;
#89 = EDGE_LOOP ( 'NONE', ( #108 ) ) ;
#90 = AXIS2_PLACEMENT_3D ( 'NONE', #210, #156, #83 ) ;
#91 = CIRCLE ( 'NONE', #45, 107.7649147042204400 ) ;
#92 = UNCERTAINTY_MEASURE_WITH_UNIT (LENGTH_MEASURE( 1.000000000000000100E-005 ), #188, 'distance_accuracy_value', 'NONE');
#93 = FACE_OUTER_BOUND ( 'NONE', #70, .T. ) ;
#94 = CARTESIAN_POINT ( 'NONE',  ( -0.4999999998100085300, 0.0000000000000000000, 0.0000000000000000000 ) ) ;
#95 = CARTESIAN_POINT ( 'NONE',  ( 0.4999999998100135300, 0.0000000000000000000, 0.0000000000000000000 ) ) ;
#96 = STYLED_ITEM ( 'NONE', ( #177 ), #143 ) ;
#97 = ORIENTED_EDGE ( 'NONE', *, *, #244, .T. ) ;
#98 = DIRECTION ( 'NONE',  ( -1.000000000000000000, 0.0000000000000000000, 0.0000000000000000000 ) ) ;
#99 = AXIS2_PLACEMENT_3D ( 'NONE', #205, #151, #82 ) ;
#100 = CARTESIAN_POINT ( 'NONE',  ( 1.250000000000000000, 0.0000000000000000000, 0.0000000000000000000 ) ) ;
#101 = EDGE_LOOP ( 'NONE', ( #229 ) ) ;
#102 =( NAMED_UNIT ( * ) SI_UNIT ( $, .STERADIAN. ) SOLID_ANGLE_UNIT ( ) );
#103 = AXIS2_PLACEMENT_3D ( 'NONE', #166, #74, #122 ) ;
#104 = DIRECTION ( 'NONE',  ( 0.0000000000000000000, 0.0000000000000000000, -1.000000000000000000 ) ) ;
#105 = CARTESIAN_POINT ( 'NONE',  ( 1.250000001598141200, 0.0000000000000000000, -110.6415137215224400 ) ) ;
#106 = APPLICATION_CONTEXT ( 'automotive_design' ) ;
#107 = CARTESIAN_POINT ( 'NONE',  ( -1.600000000189977200, 0.0000000000000000000, -107.7649147042204400 ) ) ;
#108 = ORIENTED_EDGE ( 'NONE', *, *, #198, .T. ) ;
#109 = ORIENTED_EDGE ( 'NONE', *, *, #183, .F. ) ;
#110 = ADVANCED_BREP_SHAPE_REPRESENTATION ( 'FULLVAC JF1CF200', ( #143, #90 ), #216 ) ;
#111 = MECHANICAL_DESIGN_GEOMETRIC_PRESENTATION_REPRESENTATION (  '', ( #96 ), #130 ) ;
#112 = PRODUCT_DEFINITION_FORMATION_WITH_SPECIFIED_SOURCE ( 'ANY', '', #6, .NOT_KNOWN. ) ;
#113 = EDGE_LOOP ( 'NONE', ( #241 ) ) ;
#114 = AXIS2_PLACEMENT_3D ( 'NONE', #225, #191, #104 ) ;
#115 = VERTEX_POINT ( 'NONE', #36 ) ;
#116 = PLANE ( 'NONE',  #84 ) ;
#117 = EDGE_LOOP ( 'NONE', ( #200 ) ) ;
#118 = VERTEX_POINT ( 'NONE', #105 ) ;
#119 = CARTESIAN_POINT ( 'NONE',  ( 1.600000000000000100, 105.3824573519457000, 0.0000000000000000000 ) ) ;
#120 = CARTESIAN_POINT ( 'NONE',  ( 1.250000001598141200, 0.0000000000000000000, 0.0000000000000000000 ) ) ;
#121 = CONICAL_SURFACE ( 'NONE', #224, 110.6415137215224400, 1.247910413749998300 ) ;
#122 = DIRECTION ( 'NONE',  ( 0.0000000000000000000, 0.0000000000000000000, 1.000000000000000000 ) ) ;
#123 = DIRECTION ( 'NONE',  ( 1.000000000000000000, 0.0000000000000000000, 0.0000000000000000000 ) ) ;
#124 =( NAMED_UNIT ( * ) SI_UNIT ( $, .STERADIAN. ) SOLID_ANGLE_UNIT ( ) );
#125 = CARTESIAN_POINT ( 'NONE',  ( 0.0000000000000000000, 0.0000000000000000000, 0.0000000000000000000 ) ) ;
#126 = ORIENTED_EDGE ( 'NONE', *, *, #183, .T. ) ;
#127 = CARTESIAN_POINT ( 'NONE',  ( -1.249999999999999800, 0.0000000000000000000, -111.2500000000000000 ) ) ;
#128 = DIRECTION ( 'NONE',  ( -1.000000000000000000, -0.0000000000000000000, 0.0000000000000000000 ) ) ;
#129 = CIRCLE ( 'NONE', #87, 111.2500000000000000 ) ;
#130 =( GEOMETRIC_REPRESENTATION_CONTEXT ( 3 ) GLOBAL_UNCERTAINTY_ASSIGNED_CONTEXT ( ( #92 ) ) GLOBAL_UNIT_ASSIGNED_CONTEXT ( ( #188, #57, #168 ) ) REPRESENTATION_CONTEXT ( 'NONE', 'WORKASPACE' ) );
#131 = FACE_OUTER_BOUND ( 'NONE', #157, .T. ) ;
#132 = ADVANCED_FACE ( 'NONE', ( #197, #190 ), #51, .F. ) ;
#133 = FACE_OUTER_BOUND ( 'NONE', #66, .T. ) ;
#134 = FACE_BOUND ( 'NONE', #174, .T. ) ;
#135 = PRODUCT_DEFINITION ( 'UNKNOWN', '', #112, #165 ) ;
#136 = FACE_BOUND ( 'NONE', #219, .T. ) ;
#137 = CIRCLE ( 'NONE', #68, 103.0000000000000100 ) ;
#138 = DIRECTION ( 'NONE',  ( 1.000000000000000000, 0.0000000000000000000, -0.0000000000000000000 ) ) ;
#139 = EDGE_LOOP ( 'NONE', ( #109 ) ) ;
#140 = DIRECTION ( 'NONE',  ( 1.000000000000000000, 0.0000000000000000000, 0.0000000000000000000 ) ) ;
#141 = CIRCLE ( 'NONE', #114, 110.6415137215224400 ) ;
#142 = DIRECTION ( 'NONE',  ( 1.000000000000000000, -0.0000000000000000000, -0.0000000000000000000 ) ) ;
#143 = MANIFOLD_SOLID_BREP ( 'Volumenk\S\vrper1', #195 ) ;
#144 = DIRECTION ( 'NONE',  ( 1.000186505985973900E-018, 0.0000000000000000000, 1.000000000000000000 ) ) ;
#145 = ORIENTED_EDGE ( 'NONE', *, *, #52, .F. ) ;
#146 = CARTESIAN_POINT ( 'NONE',  ( -1.249999999999999800, 0.0000000000000000000, 0.0000000000000000000 ) ) ;
#147 = CARTESIAN_POINT ( 'NONE',  ( 1.600000000000000100, 0.0000000000000000000, 0.0000000000000000000 ) ) ;
#148 = FILL_AREA_STYLE ('',( #20 ) ) ;
#149 = SURFACE_SIDE_STYLE ('',( #62 ) ) ;
#150 = FACE_BOUND ( 'NONE', #33, .T. ) ;
#151 = DIRECTION ( 'NONE',  ( -1.000000000000000000, -0.0000000000000000000, -0.0000000000000000000 ) ) ;
#152 = FILL_AREA_STYLE ('',( #175 ) ) ;
#153 = PRESENTATION_LAYER_ASSIGNMENT (  '', '', ( #18 ) ) ;
#154 = DIRECTION ( 'NONE',  ( 0.0000000000000000000, 0.0000000000000000000, -1.000000000000000000 ) ) ;
#155 = DIRECTION ( 'NONE',  ( 1.000000000000000000, 0.0000000000000000000, 0.0000000000000000000 ) ) ;
#156 = DIRECTION ( 'NONE',  ( 0.0000000000000000000, 0.0000000000000000000, 1.000000000000000000 ) ) ;
#157 = EDGE_LOOP ( 'NONE', ( #7 ) ) ;
#158 = ADVANCED_FACE ( 'NONE', ( #176, #215 ), #2, .T. ) ;
#159 = EDGE_CURVE ( 'NONE', #223, #223, #137, .T. ) ;
#160 = EDGE_LOOP ( 'NONE', ( #226 ) ) ;
#161 = COLOUR_RGB ( '',0.3215686274509803600, 0.3215686274509803600, 0.3215686274509803600 ) ;
#162 = ADVANCED_FACE ( 'NONE', ( #15, #81 ), #186, .T. ) ;
#163 = CIRCLE ( 'NONE', #69, 110.6415137215224400 ) ;
#164 = EDGE_LOOP ( 'NONE', ( #242 ) ) ;
#165 = PRODUCT_DEFINITION_CONTEXT ( 'detailed design', #106, 'design' ) ;
#166 = CARTESIAN_POINT ( 'NONE',  ( -1.250000001598140300, 0.0000000000000000000, 0.0000000000000000000 ) ) ;
#167 = PRODUCT_RELATED_PRODUCT_CATEGORY ( 'part', '', ( #6 ) ) ;
#168 =( NAMED_UNIT ( * ) SI_UNIT ( $, .STERADIAN. ) SOLID_ANGLE_UNIT ( ) );
#169 = EDGE_LOOP ( 'NONE', ( #11 ) ) ;
#170 = DIRECTION ( 'NONE',  ( 0.0000000000000000000, 0.0000000000000000000, -1.000000000000000000 ) ) ;
#171 = DIRECTION ( 'NONE',  ( 1.000000000000000000, 0.0000000000000000000, 0.0000000000000000000 ) ) ;
#172 = CARTESIAN_POINT ( 'NONE',  ( 1.250000000000000000, 0.0000000000000000000, -111.2500000000000000 ) ) ;
#173 = ADVANCED_FACE ( 'NONE', ( #246, #192 ), #25, .T. ) ;
#174 = EDGE_LOOP ( 'NONE', ( #61 ) ) ;
#175 = FILL_AREA_STYLE_COLOUR ( '', #161 ) ;
#176 = FACE_BOUND ( 'NONE', #21, .T. ) ;
#177 = PRESENTATION_STYLE_ASSIGNMENT (( #254 ) ) ;
#178 = AXIS2_PLACEMENT_3D ( 'NONE', #119, #32, #250 ) ;
#179 = ADVANCED_FACE ( 'NONE', ( #134, #41 ), #54, .T. ) ;
#180 = PRODUCT_DEFINITION_SHAPE ( 'NONE', 'NONE',  #135 ) ;
#181 = EDGE_LOOP ( 'NONE', ( #245 ) ) ;
#182 = VERTEX_POINT ( 'NONE', #194 ) ;
#183 = EDGE_CURVE ( 'NONE', #182, #182, #27, .T. ) ;
#184 = ORIENTED_EDGE ( 'NONE', *, *, #159, .T. ) ;
#185 = SHAPE_DEFINITION_REPRESENTATION ( #180, #110 ) ;
#186 = PLANE ( 'NONE',  #178 ) ;
#187 = VERTEX_POINT ( 'NONE', #127 ) ;
#188 =( LENGTH_UNIT ( ) NAMED_UNIT ( * ) SI_UNIT ( .MILLI., .METRE. ) );
#189 = SURFACE_SIDE_STYLE ('',( #211 ) ) ;
#190 = FACE_OUTER_BOUND ( 'NONE', #164, .T. ) ;
#191 = DIRECTION ( 'NONE',  ( -1.000000000000000000, -0.0000000000000000000, 0.0000000000000000000 ) ) ;
#192 = FACE_BOUND ( 'NONE', #160, .T. ) ;
#193 = CARTESIAN_POINT ( 'NONE',  ( -0.4999999998100086400, 108.3999999996709200, 0.0000000000000000000 ) ) ;
#194 = CARTESIAN_POINT ( 'NONE',  ( -1.600000000000000100, 0.0000000000000000000, -103.0000000000000100 ) ) ;
#195 = CLOSED_SHELL ( 'NONE', ( #162, #243, #173, #88, #230, #8, #179, #132, #26, #158 ) ) ;
#196 = VERTEX_POINT ( 'NONE', #172 ) ;
#197 = FACE_BOUND ( 'NONE', #181, .T. ) ;
#198 = EDGE_CURVE ( 'NONE', #187, #187, #129, .T. ) ;
#199 = AXIS2_PLACEMENT_3D ( 'NONE', #207, #78, #144 ) ;
#200 = ORIENTED_EDGE ( 'NONE', *, *, #159, .F. ) ;
#201 = EDGE_CURVE ( 'NONE', #5, #5, #47, .T. ) ;
#202 = ORIENTED_EDGE ( 'NONE', *, *, #198, .F. ) ;
#203 = AXIS2_PLACEMENT_3D ( 'NONE', #125, #155, #154 ) ;
#204 = CARTESIAN_POINT ( 'NONE',  ( -1.250000000000000000, 110.9457568610285700, 0.0000000000000000000 ) ) ;
#205 = CARTESIAN_POINT ( 'NONE',  ( -0.4999999998100135300, 0.0000000000000000000, 0.0000000000000000000 ) ) ;
#206 = EDGE_LOOP ( 'NONE', ( #202 ) ) ;
#207 = CARTESIAN_POINT ( 'NONE',  ( 0.4999999998100186400, 0.0000000000000000000, 0.0000000000000000000 ) ) ;
#208 =( NAMED_UNIT ( * ) PLANE_ANGLE_UNIT ( ) SI_UNIT ( $, .RADIAN. ) );
#209 = CARTESIAN_POINT ( 'NONE',  ( 1.250000000000000000, 110.9457568610285700, 0.0000000000000000000 ) ) ;
#210 = CARTESIAN_POINT ( 'NONE',  ( 0.0000000000000000000, 0.0000000000000000000, 0.0000000000000000000 ) ) ;
#211 = SURFACE_STYLE_FILL_AREA ( #148 ) ;
#212 = ORIENTED_EDGE ( 'NONE', *, *, #30, .F. ) ;
#213 = AXIS2_PLACEMENT_3D ( 'NONE', #234, #140, #71 ) ;
#214 = CIRCLE ( 'NONE', #48, 111.2500000000000000 ) ;
#215 = FACE_OUTER_BOUND ( 'NONE', #206, .T. ) ;
#216 =( GEOMETRIC_REPRESENTATION_CONTEXT ( 3 ) GLOBAL_UNCERTAINTY_ASSIGNED_CONTEXT ( ( #63 ) ) GLOBAL_UNIT_ASSIGNED_CONTEXT ( ( #35, #208, #124 ) ) REPRESENTATION_CONTEXT ( 'NONE', 'WORKASPACE' ) );
#217 = CIRCLE ( 'NONE', #252, 108.3999999996709400 ) ;
#218 = CARTESIAN_POINT ( 'NONE',  ( 1.600000000189977200, 0.0000000000000000000, -5.501025784823004300E-019 ) ) ;
#219 = EDGE_LOOP ( 'NONE', ( #56 ) ) ;
#220 = EDGE_CURVE ( 'NONE', #118, #118, #141, .T. ) ;
#221 = ORIENTED_EDGE ( 'NONE', *, *, #31, .T. ) ;
#222 = DIRECTION ( 'NONE',  ( 1.000000000000000000, 0.0000000000000000000, 0.0000000000000000000 ) ) ;
#223 = VERTEX_POINT ( 'NONE', #238 ) ;
#224 = AXIS2_PLACEMENT_3D ( 'NONE', #120, #58, #239 ) ;
#225 = CARTESIAN_POINT ( 'NONE',  ( 1.250000001598141200, 0.0000000000000000000, 0.0000000000000000000 ) ) ;
#226 = ORIENTED_EDGE ( 'NONE', *, *, #19, .F. ) ;
#227 = PRODUCT_CONTEXT ( 'NONE', #85, 'mechanical' ) ;
#228 = VERTEX_POINT ( 'NONE', #3 ) ;
#229 = ORIENTED_EDGE ( 'NONE', *, *, #19, .T. ) ;
#230 = ADVANCED_FACE ( 'NONE', ( #131, #22 ), #121, .F. ) ;
#231 = AXIS2_PLACEMENT_3D ( 'NONE', #94, #138, #53 ) ;
#232 = VERTEX_POINT ( 'NONE', #23 ) ;
#233 = FACE_OUTER_BOUND ( 'NONE', #89, .T. ) ;
#234 = CARTESIAN_POINT ( 'NONE',  ( 0.6250000000000000000, 0.0000000000000000000, 0.0000000000000000000 ) ) ;
#235 = DIRECTION ( 'NONE',  ( 0.0000000000000000000, 0.0000000000000000000, 1.000000000000000000 ) ) ;
#236 = CARTESIAN_POINT ( 'NONE',  ( -1.600000000000000100, 0.0000000000000000000, 0.0000000000000000000 ) ) ;
#237 = DIRECTION ( 'NONE',  ( 0.0000000000000000000, 0.0000000000000000000, -1.000000000000000000 ) ) ;
#238 = CARTESIAN_POINT ( 'NONE',  ( 1.600000000000000100, 0.0000000000000000000, -103.0000000000000100 ) ) ;
#239 = DIRECTION ( 'NONE',  ( 0.0000000000000000000, 0.0000000000000000000, -1.000000000000000000 ) ) ;
#240 = CARTESIAN_POINT ( 'NONE',  ( -1.600000000189977200, 0.0000000000000000000, 0.0000000000000000000 ) ) ;
#241 = ORIENTED_EDGE ( 'NONE', *, *, #30, .T. ) ;
#242 = ORIENTED_EDGE ( 'NONE', *, *, #31, .F. ) ;
#243 = ADVANCED_FACE ( 'NONE', ( #65, #67 ), #24, .F. ) ;
#244 = EDGE_CURVE ( 'NONE', #251, #251, #12, .T. ) ;
#245 = ORIENTED_EDGE ( 'NONE', *, *, #201, .F. ) ;
#246 = FACE_OUTER_BOUND ( 'NONE', #113, .T. ) ;
#247 = ORIENTED_EDGE ( 'NONE', *, *, #201, .T. ) ;
#248 = DIRECTION ( 'NONE',  ( 0.0000000000000000000, 0.0000000000000000000, 1.000000000000000000 ) ) ;
#249 = EDGE_LOOP ( 'NONE', ( #97 ) ) ;
#250 = DIRECTION ( 'NONE',  ( 0.0000000000000000000, 0.0000000000000000000, -1.000000000000000000 ) ) ;
#251 = VERTEX_POINT ( 'NONE', #107 ) ;
#252 = AXIS2_PLACEMENT_3D ( 'NONE', #95, #142, #73 ) ;
#253 = DIRECTION ( 'NONE',  ( -1.000000000000000000, -0.0000000000000000000, -0.0000000000000000000 ) ) ;
#254 = SURFACE_STYLE_USAGE ( .BOTH. , #189 ) ;
ENDSEC;
END-ISO-10303-21;
